Sunshine Of Your Love Uke乐谱通过 Cream

Ukulele乐谱没有和弦.

添加乐谱到您的歌本里
Tablature / ChordsFont size: A- A A+

不明白什么是乐谱和弦?请您浏览这些uke课程:

A|--5-5-3-5-----------------------------------| x2
E|-----------5--4--3--------------------------|
C|--------------------2-5--2------------------|
G|--------------------------------------------|



A|--5-5-3-5-------------------5-5-3-5-------------------| x3
E|--2-2-0-2--5--4--3----------2-2-0-2--5--4--3----5-----|
C|--2-2-0-2-----------2-5--2--2-2-0-2-----------2-5--2--|
G|--2-2-0-2-------------------2-2-0-2-------------------|



A|--10-10-8-10-----------------------------------| x2
E|---7--7-5--7--10--9--8-------------------------|
C|---7--7-5--7------------7-10--7----------------|
G|---7--7-5--7-----------------------------------|



A|--5-5-3-5--------------------------------------| x2
E|--2-2-0-2--5--4--3-----------------------------|
C|--2-2-0-2-----------2-5--2---------------------|
G|--2-2-0-2--------------------------------------|

 

乐谱评价 (0)
暂时没有评价. :(
需要帮助,你有一个小费分享,或只是想谈谈这首歌? 开始讨论!

您必须登录才能加入讨论
要么 注册

 

关于这首歌

没有这首歌的信息.