Sunshine Of Your Love (歌曲主要旋律) Uke乐谱通过 Cream

Ukulele乐谱没有和弦.

添加乐谱到您的歌本里
Tablature / ChordsFont size: A- A A+

不明白什么是乐谱和弦?请您浏览这些uke课程:

A|-3-3-1-3----------------3-3-1-3---2--
E|-----------2--1----------------------
C|----------------0-3-0-0--------------
G|---------0----------------------0----


A|----------7--7--5--7-----------------
E|-1--------6--6--4--6----2--1--8-----8
C|---0-3-0--7--7--5--7-----------------
G|----------------------0----------8---


A|-7--7--5--7----------8----------------
E|-6--6--4--6----2--1--------8----------
C|-7--7--5--7---------------------------
G|-------------0----------8-------------

 

乐谱评价 (2)
您必须登录才能加入讨论
要么 注册

 

JosephUke avatar
flag for GB(ISO2) (Sheffield)
its cool i glad you got it down :)
04 Aug 2010
love4lulu avatar
flag for US(ISO2) (los angeles)
aha ahh im a really slow learner but i managed!!
THANKS :D
03 Aug 2010
关于这首歌

没有这首歌的信息.