Not The One Uke乐谱通过 Collective Soul

Ukulele乐谱没有和弦.

添加乐谱到您的歌本里
Tablature / ChordsFont size: A- A A+

不明白什么是乐谱和弦?请您浏览这些uke课程:

G G     D D     G G     D D      G G     D D     G G     D D
A|----5-2---5----5-2---5-|----5-2---5-----5-2---5-|
E|--------3----------3---|--------3-----------3---|
C|2-----------2----------|2-----------2-----------|
G|--2----------2---------|--2-----------2---------|

A|----5-------5-----5-2---5-|----5-2---5-----5-----5-|
E|2-----3-2-0-2---------3---|5-------5-3-------3-----|
C|--------------2-----------|------------2-----------|
G|--2-------2-----2---------|--2-----2-----2-----4---|
Verse
A|----5-------5-----5-2---5-|----5-2---5-----5-----5-|
E|2-----3-2-0-2---------3---|5-------5-3-------3-----|
C|--------------2-----------|------------2-----------|
G|--2-------2-----2---------|--2-----2-----2-----4---|
I waltzed around you seven times only to become
Verse
A|----5-------5-----5-2---5-|----5-2---5-----5-----5-|
E|2-----3-2-0-2---------3---|5-------5-3-------3-----|
C|--------------2-----------|------------2-----------|
G|--2-------2-----2---------|--2-----2-----2-----4---|
A A melody you never sang I'm not the one.
Chorus
A|--2---7-------5-----5---|----5-2---5-----5-2---5-|
E|0---0-----0-3-----3-----|--------3-----------3---|
C|------------------------|2-----------2-----------|
G|--------4-------4-----4-|--2-----------2---------|
Oh.........ooooooh, I'm not the one.

Second verse:
Clouds of thought you filter through never to reason
While patiently your world still bleeds, who will be the one.

Repeat chorus
Solo
Repeat first verse.

 

乐谱评价 (0)
暂时没有评价. :(
需要帮助,你有一个小费分享,或只是想谈谈这首歌? 开始讨论!

您必须登录才能加入讨论
要么 注册

 

关于这首歌

没有这首歌的信息.