See You Soon Uke乐谱通过 Coldplay

0 在歌曲中使用的和弦:

添加乐谱到您的歌本里
Tablature / ChordsFont size: A- A A+

不明白什么是乐谱和弦?请您浏览这些uke课程:

Intro:
-----0--------------0----------0-----------
--5-----5--7--9--4-----4--2/4-----4-------- x3
--6--------8--9--4--------4----------4-----
-------------------------------------------

------0-----0--------0---------0-----------
--10-----9-----9--4----4--2/4-----4--------
--11-----9--------4-------4----------------
-------------------------------------------

Verse:
-----0--------------0----------0-----------
--5-----5--7--9--4-----4--2/4-----4-------- x4
--6--------8--9--4--------4----------4-----
-------------------------------------------

Chorus:
--9---9---------------0----------0---------
--10-----10-----9--4-----4--2/4-----4------ x3
--9----------9--9--4--------4----------4---
-------------------------------------------

-------------------------0----------0------
-----10--------10--9--4-----4--2/4-----4---
--9------9--9---------4--------4-----------
-------------------------------------------

Outro:
------0-----0--------0---------0-----------
--10-----9-----9--4----4--2/4-----4--------
--11-----9--------4-------4----------------
-------------------------------------------

So, it goes:
Intro
Verse
Chorus
Verse
Chorus
Outro

Listen to the song for the picking pattern.

 

乐谱评价 (0)
暂时没有评价. :(
需要帮助,你有一个小费分享,或只是想谈谈这首歌? 开始讨论!

您必须登录才能加入讨论
要么 注册

 

关于这首歌

没有这首歌的信息.