Pregnant Uke乐谱通过 Cold War Kids

4 在歌曲中使用的和弦 :

添加乐谱到您的歌本里

为Baritone浏览这些和弦

Transpose chords:
Tablature / ChordsFont size: A- A A+

不明白什么是乐谱和弦?请您浏览这些uke课程:


CHORDS USED: Am chordAm C chordC or C chordC C7 chordC7 F chordF

A|------------------0-----3------3-----1-----0--------------|
E|------------------0-----0------3-----0-----1--------------|
C|------------------0-----0------4-----0-----0--------------|
G|------------------2-----0------5-----0-----2--------------|





INTRO : with the whistles.

A|-0-1---0-3---0-1---0-3---0-1---0-3---0-1---0-3---0-1----1-0-3-|
E|-0-0---0-0---0-0---0-0---0-0---0-0---0-0---0-0---0-0----0-0-0-|
C|-0-0---0-0---0-0---0-0---0-0---0-0---0-0---0-0---0-0----0-0-0-|
G|-2-0---2-0---2-0---2-0---2-0---2-0---2-0---2-0---2-0----0-2-0-|


or (second version more similar but more harder)


A|-0-1---0-3---0-1---0-3---0-1---0-3---0-1---0-3---0-1----1-0-3-|
E|-0-0---0-3---0-0---0-3---0-0---0-3---0-0---0-3---0-0----0-0-0-|
C|-0-0---0-4---0-0---0-4---0-0---0-4---0-0---0-4---0-0----0-0-0-|
G|-2-0---2-5---2-0---2-4---2-0---2-5---2-0---2-5---2-0----0-2-0-|





VERSE/CHORUS: play this about 14 - 16 times

A|-0--0-0-0-0--0-0-0-0--0-0-| |-0h1-0---|
E|-1--1-1-1-1--1-1-1-1--1-1-| |-------1-|
C|-0--0-0-0-0--0-0-0-0--0-0-| + |---------|
G|-2--2-2-2-2--2-2-2-2--2-2-| |---------|

|-1--0--3-|
I think sometimes he plays | + |-0--0--0-|
|-0--0--0-|
|-0--2--0-|





VERSE/CHORUS part 2: play this around 7 times

A|-3----3--3--3-|
E|-3----3--3--3-|
C|-4----4--4--4-|
G|-5----5--5--5-|

 

乐谱评价 (0)
暂时没有评价. :(
需要帮助,你有一个小费分享,或只是想谈谈这首歌? 开始讨论!

您必须登录才能加入讨论
要么 注册

 

关于这首歌

没有这首歌的信息.