You Never Can Tell Uke乐谱通过 Chuck Berry

Ukulele乐谱没有和弦.

添加乐谱到您的歌本里
Tablature / ChordsFont size: A- A A+

不明白什么是乐谱和弦?请您浏览这些uke课程:

Intro
A|----7---7---6---5-|---3-3-|
E|------------------|-0---0-|
C|-/7---7---6---5---|-------|
G|------------------|-------|
|_| |_| |_| |_| |_| |

Piano Solo
A|-----2-3-----2-------------------|-----2-3-----2-------------------|
E|-3-5-------5-----3-5------3------|-3-5-------5-----3-5------3--2-1-|
C|-----------------------4----0--4-|-----------------------4---------|
G|---------------------------------|---------------------------------|
| |_| | |_| |_| | |_| | | |_| | |_| |_| | | |_|

A|--------------------------------|-------------------------------|
E|-3-5-6-7---3-5-----3------3-2-1-|-3-5-6-7---3-5-----3-----------|
C|-----------------4-----2--------|-----------------4-----2-5-2-0-|
G|--------------------------------|-------------------------------|
| |_| | |_| |_| | |_| | | |_| | |_| |_| |_| |_|

 

乐谱评价 (1)
您必须登录才能加入讨论
要么 注册

 

frostmace avatar
flag for CA(ISO2) (sdadsdasd)
flawless, thank you
19 Dec 2019
关于这首歌

没有这首歌的信息.