Johnny B. Goode Uke乐谱通过 Chuck Berry

Ukulele乐谱没有和弦.

添加乐谱到您的歌本里
Tablature / ChordsFont size: A- A A+

不明白什么是乐谱和弦?请您浏览这些uke课程:

chuck berry - johnny b. goode

|--------|-/3-3-3-/3-3-3-/3-3-|-3---------------|
|----3-5-|-/3-3-3-/3-3-3-/3-3-|-3-6-5-3---------|
|-/4-----|--------------------|---------3-4-----|
|--------|--------------------|-------------5-5-|

|------------------|------------------|--------------|-3------|
|------------------|----3-5-3---------|----3----3----|-3---33-|
|-/4-4-4-4-4-4-4-4-|-/4-4-4-4\2p0-----|-5b---5b---5b-|--5b5b--|
|-/5-5-5-5-5-5-5-5-|--------------2p0-|--------------|--------|

|--------------|-3-----------|----3-------5-3-|-----------3---|
|----3----3----|-3----3----3-|------6-5-3-----|-6-5-3----3--6-|
|-5b---5b---5b-|---5b---5b---|-5b-------------|-------5-3---4-|
|--------------|-------------|----------------|---------------|

|---------------------|-------------|
|-5-3----3----3-------|-------------|
|-----5b---5b---5--3h4|-0-----------|
|---------------------|-------------|

||---------|---------|---------|---------|
||.3-3-5-3-|-3-3-5-3-|-3-3-5-3-|-3-3-5-3-|
||.0-0-0-0-|-0-0-0-0-|-0-0-0-0-|-0-0-0-0-|
||---------|---------|---------|---------|

|---------|---------|---------|---------|
|-3-3-5-3-|-3-3-5-3-|-3-3-5-3-|-3-3-5-3-|
|-0-0-0-0-|-0-0-0-0-|-0-0-0-0-|-0-0-0-0-|
|---------|---------|---------|---------|

|-3-3-5-3-|-3-3-5-3-|-3-3-5-3-|-3-3-5-3-|
|-1-1-1-1-|-1-1-1-1-|-1-1-1-1-|-1-1-1-1-|
|---------|---------|---------|---------|
|---------|---------|---------|---------|

|---------|---------|---------|---------|
|-3-3-5-3-|-3-3-5-3-|-3-3-5-3-|-3-3-5-3-|
|-0-0-0-0-|-0-0-0-0-|-0-0-0-0-|-0-0-0-0-|
|---------|---------|---------|---------|

|-5-5-7-5-|-5-5-7-5-|-3-3-5-3-|-3-3-5-3-|
|-3-3-3-3-|-3-3-3-3-|-1-1-1-1-|-1-1-1-1-|
|---------|---------|---------|---------|
|---------|---------|---------|---------|

|---------|---------|---5-5-5-|-5-5-5-5-||
|-3-3-5-3-|-3-3-5-3-|---3-3-3-|-3-3-3-3.||
|-0-0-0-0-|-0-0-0-0-|---------|--------.||
|---------|---------|---------|---------||

/ = slide up
\ = slide down
b = bend up
h = hammer-on
p = pull-off

 

乐谱评价 (0)
暂时没有评价. :(
需要帮助,你有一个小费分享,或只是想谈谈这首歌? 开始讨论!

您必须登录才能加入讨论
要么 注册

 

关于这首歌

没有这首歌的信息.