Malagueña Salerosa Intro (介绍) Uke乐谱通过 Chingon

Ukulele乐谱没有和弦.

添加乐谱到您的歌本里
Tablature / ChordsFont size: A- A A+

不明白什么是乐谱和弦?请您浏览这些uke课程:

~                 ~                           ~~~    
A|---------------------------------------------------------------------|
E|------2-----2---5-------2-----2---5-------2-----2---5------3-2-3-----|
C|---3-----3-----------3-----3-----------3-----3-----------------------|
G|---------------------------------------------------------------------|
~ ~ S ~~
A|-----------------------------------------------------------------------
E|------3----3-------------3-----3------------------5-----3-5-----2-3-2-|
C|---4-----4------------4-----4-----------------------------------------|
G|----------------4------------------4----4--5--4-----------------------|
~~~~
A|---------------------------------------------------------------------|
E|--------------------5------5--3---5--3-2----5------3-2---------------|
C|-------------------------------------------------------3-------------|
G|---4--5------7--5-4----5-4------4------------------------------------|

A|---4------------9-----------6------------7------------------------2---|
E|---------------5-----------2------------3------------------------0+--|
C|---------------------------------------------------------------------|
G|---4-----------------------------------------------------------------|
~~ ~~ ~~
A|------7----------7---------------------------------------------------|
E|---------------------------------------------------------------------|
C|---------------------------------------------------------------------|
G|---4-----------------4------------4---9------------------------------|

 

乐谱评价 (0)
暂时没有评价. :(
需要帮助,你有一个小费分享,或只是想谈谈这首歌? 开始讨论!

您必须登录才能加入讨论
要么 注册

 

关于这首歌

没有这首歌的信息.