With Ur Love Uke乐谱通过 Cher Lloyd

1 在歌曲中使用的和弦 :

添加乐谱到您的歌本里

为Baritone浏览这些和弦

Transpose chords:
Tablature / ChordsFont size: A- A A+

不明白什么是乐谱和弦?请您浏览这些uke课程:


A|--------2-7-7--7-7-7--------------------|
E|-0-2-4----------------------------------|
C|----------------------------------------|
G|----------------------------------------|

x2


A|---------7-12-12--12-12-12--------------|
E|-5-7-9----------------------------------|
C|----------------------------------------|
G|----------------------------------------|

x2

 

乐谱评价 (0)
暂时没有评价. :(
需要帮助,你有一个小费分享,或只是想谈谈这首歌? 开始讨论!

您必须登录才能加入讨论
要么 注册

 

关于这首歌

没有这首歌的信息.