Waltz For Pony Uke乐谱通过 BOY

Ukulele乐谱没有和弦.

添加乐谱到您的歌本里
Tablature / ChordsFont size: A- A A+

不明白什么是乐谱和弦?请您浏览这些uke课程:

Intro x2

A|----3--3-------3--3-------3--3---------3--3-----|
E|-1---------1-----------1------------1-----------|
C|------------------------------------------------|
G|----2--2-------2--2-------0--0---------0--0-----|


Verse and Chorus

A|----3--3-------3--3-------3--3---------3--3-----|
E|-1---------1-----------1------------1-----------|
C|------------------------------------------------|
G|----2--2-------2--2-------0--0---------0--0-----|

A|----3--3-------3--3-------3--3---------3--3-----|
E|------------------------------------------------|
C|-2---------2-----------0------------0-----------|
G|----2--2-------2--2-------0--0---------0--0-----|

 

乐谱评价 (0)
暂时没有评价. :(
需要帮助,你有一个小费分享,或只是想谈谈这首歌? 开始讨论!

您必须登录才能加入讨论
要么 注册

 

关于这首歌

没有这首歌的信息.