Always Like This Uke乐谱通过 Bombay Bicycle Club

1 在歌曲中使用的和弦 :

添加乐谱到您的歌本里

为Baritone浏览这些和弦

Transpose chords:
Tablature / ChordsFont size: A- A A+

不明白什么是乐谱和弦?请您浏览这些uke课程:


|-----x---------------------------------------------------------------------|
B|-9---13--------------------------------------------------------------------|
G|-10--13--------------------------------------------------------------------|
D|-11--13--------------------------------------------------------------------|
A|-11------------------------------------------------------------------------|
E|---------------------------------------------------------------------------|


e|---------------------------------------------------------------------------|
B|---------------------------------------------------------------------------|
G|----10------------------10-------------------------------------------------|
D|------11------11-13-------11-----------------------------------------------|
A|--------11-11------13-13----88-9-11----------------------------------------|
E|-9-9-----------------------------------------------------------------------|


e -x---x---x-----------------------------------------------------------------
B|-9--11--13-----------------------------------------------------------------|
G|-10-11--13-----------------------------------------------------------------|
D|-11-11--13-----------------------------------------------------------------|
A|-11------------------------------------------------------------------------|
E|---------------------------------------------------------------------------|


e|-22-----x----x----9-9-----------------------------------------------------|
B|-22-----x----x----9-9-----------------------------------------------------|
G|-33-----1313-1111-1010----------------------------------------------------|
D|-44-8-8-1313-1111-1111-11-11----------------------------------------------|
A|-44-9-9-1111-9-9--1111-11-11----------------------------------------------|
E|-22---------------9-9-----------------------------------------------------|


e|-44-44-44-44-444-----------------------------------------------------------|
B|-44-44-44-44-444-----------------------------------------------------------|
G|-55-55-55-55-555-----------------------------------------------------------|
D|-66-66-66-66-666-----------------------------------------------------------|
A|-66-66-66-66-666-----------------------------------------------------------|
E|-44-44-44-44-444-----------------------------------------------------------|



e|-------11----------9-------------------------------------------------------|
B|---11----11----11---11-----------------------------------------------------|
G|-----11----11----11---11---------------------------------------------------|
D|-11----------11------------------------------------------------------------|
A|---------------------------------------------------------------------------|
E|---------------------------------------------------------------------------|



e|---------------------------------------------------------------------------|
B|---------------------------------------------------------------------------|
G|----11p10---------------10-------------------------------------------------|
D|--------13-11--------------------------------------------------------------|
A|-------------13-11-13-13--88-9-11------------------------------------------|
E|-9-9-----------------------------------------------------------------------|

 

乐谱评价 (0)
暂时没有评价. :(
需要帮助,你有一个小费分享,或只是想谈谈这首歌? 开始讨论!

您必须登录才能加入讨论
要么 注册

 

关于这首歌

没有这首歌的信息.