Kuch Kuch Hota Hai Uke乐谱通过 Bollywood

0 在歌曲中使用的和弦 :

添加乐谱到您的歌本里

为Baritone浏览这些和弦

移调和弦:
和弦图:
滚动时将和弦固定在顶部
Tablature / ChordsFont size: A- A A+

不明白什么是乐谱和弦?请您浏览这些uke课程:

A|-0-1-0-----0---0------------------------|
E|-------3-1-----1------------------------| x2
C|---------------0------------------------|
G|----------------------------------------|


A|---0------------------------------0-----|
E|-3---3-1-0--3-------3-1-3-1--111--1-----|
C|---------------0------------------0-----|
G|----------------------------------------|



A|-0-1-3-5-77-5-----0-1-3-5-77-5----------|
E|----------------------------------------|
C|----------------------------------------|
G|----------------------------------------|



A|-0-1-0----------------------------0-----|
E|-------3-1-3--------3-1-3-1--111--1-----|
C|-------------0--------------------0-----|
G|----------------------------------------|

 

乐谱评价 (0)
暂时没有评价. :(
需要帮助,你有一个小费分享,或只是想谈谈这首歌? 开始讨论!

您必须登录才能加入讨论
要么 注册

 

关于这首歌

没有这首歌的信息.