Night Moves Uke乐谱通过 Bob Seger

1 在歌曲中使用的和弦 :

添加乐谱到您的歌本里

为Baritone浏览这些和弦

Transpose chords:
Tablature / ChordsFont size: A- A A+

不明白什么是乐谱和弦?请您浏览这些uke课程:


THE SECRET TO THIS SONG IS IN THE MUTED SWEEP
I SHOW THE SWEEP WITH Xs NOTE THE SPACING

A|-2----x---2-2---x---2-2---x--2----0----|
E|-3----x---3-3---x---3-3---x--3----1----|
C|-2----x---2-2---x---2-2---x--2----0----|
G|-0----x---0-0---x---0-0---x--0----2----|

A|--3-3----x---3-3---x---3-3---x--3----0--|
E|--0-0----x---0-0---x---0-0---x--0----1--|
C|--0-0----x---0-0---x---0-0---x--0----0--|
G|--0-0----x---0-0---x---0-0---x--0----2--|

A|-2-2---x---2-2---x---2-2---x--2----0----|
E|-3-3---x---3-3---x---3-3---x--3----1----|
C|-2-2---x---2-2---x---2-2---x--2----0----|
G|-0-0---x---0-0---x---0-0---x--0----2----|

A|--3-3----x---3-3---x---3-3---x--3----0--|
E|--0-0----x---0-0---x---0-0---x--0----1--|
C|--0-0----x---0-0---x---0-0---x--0----0--|
G|--0-0----x---0-0---x---0-0---x--0----2--|

(LATER ON THERE'S EM, D, C, D, EM PLAYED OUT WITH ONE STRUM EACH)

 

乐谱评价 (1)
您必须登录才能加入讨论
要么 注册

 

LisaDee avatar
Awesome! Thank you.
29 Dec 2019
关于这首歌

没有这首歌的信息.