Reckoning Song Uke乐谱通过 Asaf Avidan

Ukulele乐谱没有和弦.

添加乐谱到您的歌本里
Tablature / ChordsFont size: A- A A+

不明白什么是乐谱和弦?请您浏览这些uke课程:

H                                                
A|---0-------------------------------------------------------------|
E|-------------------0---------------------------------------------|
C|-----------------2-----------------------------------------------|
G|-----------------2-----------------------------------------------|

A|-0---3-------3-------3-------3-------3-------3-------3-------3---|
E|-------0-0-----0-0-----0-0-----0-1-----1-1-----1-0-----0-0-----0-|
C|-----------------------------------------------------------------|
G|---2-------2-------2-------2-------2-------2-------2-------2-----|

A|-----3-------3-------3-------3---2---3-------3-------3-------3---|
E|-------0-0-----0-0-----0-0-----0-------0-------0-------0-------0-|
C|-0---------------------------------------2-------2-------2-------|
G|---0-------0-------0-------0-------0-------0-------0-------0-----|

A|-0---3-------3-------3-------3-------3-------3-------3-------3---|
E|-------0-0-----0-0-----0-0-----0-1-----1-1-----1-0-----0-0-----0-|
C|-----------------------------------------------------------------|
G|---2-------2-------2-------2-------2-------2-------2-------2-----|

A|-----3-------3---2---3-------3-------3-------3---2---3-------3---|
E|-------0-0-----0-------0-------0-------0-------0-------0-------0-|
C|-0-----------------------2-------0-------2---------------2-------|
G|---0-------0-------0-------0-------0-------0-------0-------0-----|

A|-0--3------------------------------------------------------------|
E|--0--0-----------------------------------------------------------|
C|-----------------------------------------------------------------|
G|---2-------------------------------------------------------------|

A|-0-3---3---3---3---3---3---3---3---3---3---3---3---3---3---3----3---|
E|----00--00--00--00--00--00--00--0---00--00--00--00--00--00--0-0--0)-|
C|---------------------------------0---------------------------(------|
G|--2---2---2---2---2---2---2---2---0---0---0---0---0---0---0----0----|

A|-2-3---3---3---3---3---3---3---3---3---3---3---3---3---3---3---3----|
E|----0---0---0---0---0---0---0---0---11--11--11--11--11--11--11--1---|
C|-----2---2---2---2---2---2---2---0----------------------------------|
G|--0---0---0---0---0---0---0---0---2---2---2---2---2---2---2---2-----|

A|-0-3---3---3---3---3---3---3---3---3---3---3---3---3---3---3----3---|
E|----00--00--00--00--00--00--00--0---00--00--00--00--00--00--0-0--0--|
C|---------------------------------0----------------------------------|
G|--2---2---2---2---2---2---2---2---0---0---0---0---0---0---0----0----|

A|-2-3---3---3---3---3---3---3---3-------------------------------------|
E|----0---0---0---0---0---0---0---0------------------------------------|
C|-----2---2---2---2---2---2---2---5-----------------------------------|
G|--0---0---0---0---0---0---0---0--------------------------------------|

A|-0-3---3-0-3---3---3---3---3---3-2-3---3-2-3---2---3---3---3---3-----|
E|---0-0-0---0-0-0---0-0-0---0-0-0---0---0---0---0---1-1-1---1-1-1-----|
C|-----------------0-------0-----------2-------2---5-------0-----------|
G|---2---2---2---2---0---0---0---0---0---0---0---0---2---2---2---2-----|

A|-0-3---3-0-3---3---3---3---3---3-2-3---3-2-3---2---3---3-------------|
E|---0-0-0---0-0-0---0-0-0---0-0-0---0---0---0---0---1-1-1-------------|
C|-----------------0-------0-----------2-------2---5-------0-----------|
G|---2---2---2---2---0---0---0---0---0---0---0---0---2---2-------------|

A|-0-3---3---3---3-0-3---3---3---3---3---3---3---3---3---3---3----3---|
E|----00--00--00--0---00--00--00--0---00--00--00--00--00--00--0----0--|
C|---------------------------------0----------------------------2-----|
G|--2---2---2---2---2---2---2---2---0---0---0---0---0---0---0----0----|

A|-2-3---3---3---3---3---3---3-2-3---3---3---3---3---3---3---3---3----|
E|----0---0---0---0---0---0---0---0---11--11--11--11--11--11--11--1---|
C|-----2---2---2---2---2---2-------0----------------------------------|
G|--0---0---0---0---0---0---0---0---2---2---2---2---2---2---2---2-----|

A|-0-3---3---3---3---3---3---3-0-3---3---3---3---3---3---3---3----3---|
E|----00--00--00--00--00--00--0---0---00--00--00--00--00--00--0----0--|
C|---------------------------------0---------------------------(2)----|
G|--2---2---2---2---2---2---2---2---0---0---0---0---0---0---0----0----|

A|-2-3---3---3---3---3---3---3---3-------------3-----------------------|
E|----0---0---0---0---0---0---0---0----1-----------1-------------------|
C|-----2---2---2---2---2---2---2---5-----------------------------------|
G|--0---0---0---0---0---0---0---0----------2---------------------------|

A|-0-3---3-0-3---3---3---3---3---3-2-3---3-2-3---2---3---3---3---3-----|
E|---0-0-0---0-0-0---0-0-0---0-0-0---0---0---0---0---1-1-1---1-1-1-----|
C|-----------------0-------0-----------2-------2---5-------0-----------| G|---2---2---2---2---0---0---0---0---0---0---0---0---2---2---2---2-----|

A|-0-3---3-0-3---2---3---3---3---3-2-3---3-2-3---2---3---3---3---3-----|
E|---0-0-0---0-0-0---0-0-0---0-0-0---0---0---0---0---1-1-1---1-1-1-----|
C|-----------------0-------0-----------2-------2---5-------0-----------|
G|---2---2---2---0---0---0---0---0---0---0---0---0---2---2---2---2-----|

A|-0-3---3-0-3---3---3---3---3---3-2-3---3-2-3---2---------------------|
E|---0-0-0---0-0-0---0-0-0---0-0-0---0---0---0---0---------------------|
C|-----------------0-------0-----------2-------2---5-------------------|
G|---2---2---2---2---0---0---0---0---0---0---0---0---------------------|

 

乐谱评价 (0)
暂时没有评价. :(
需要帮助,你有一个小费分享,或只是想谈谈这首歌? 开始讨论!

您必须登录才能加入讨论
要么 注册

 

关于这首歌

没有这首歌的信息.