Her Lies Uke乐谱通过 Asaf Avidan

4 在歌曲中使用的和弦 :

添加乐谱到您的歌本里

为Baritone浏览这些和弦

Transpose chords:
Tablature / ChordsFont size: A- A A+

不明白什么是乐谱和弦?请您浏览这些uke课程:

Intro + Verse:

(Am Am) (Dm Dm)
A|-3-3--2-3---2-5-5---5---------------|
E|-0-0--0-0---0-1-1---3---------------|
C|------------------------------------|
G|-2-2--2-2---0-2-2---2---------------|

Chorus:

(F F) (E E) (Am Am)
A|------2----0------------------------|
E|-1----0----0------------------------|
C|-0----4-----------------------------|
G|-2----1----2------------------------|

End:
(Am Am)
A|--12--12--7--7---3--3--0--0------------0----|
E|------------------------------1-0------0----|
C|------------------------------------3-------|
G|---------------------------------------2----|

 

乐谱评价 (0)
暂时没有评价. :(
需要帮助,你有一个小费分享,或只是想谈谈这首歌? 开始讨论!

您必须登录才能加入讨论
要么 注册

 

关于这首歌

没有这首歌的信息.