Some Things Cosmic Uke乐谱通过 Anges Olson

Ukulele乐谱没有和弦.

添加乐谱到您的歌本里
Tablature / ChordsFont size: A- A A+

不明白什么是乐谱和弦?请您浏览这些uke课程:

A|-----7-----------7-----------7-----------7--------||---5-------0---5-------0---4-------0---4-------0--|
C|--------------------------------------------------|G|--------6-----------6-----------6-----------6-----|
A|-----7-----------7-----------7-----------7--------|
E|--3--------0--3--------0--3--------0--3--------0--|
C|--------------------------------------------------|
G|--------6-----------6-----------6-----------6-----|

A|-----5-----------5-----------5-----------5--------|
E|--2--------0--2--------0--0--------0--0--------0--|
C|--------------------------------------------------|
G|--------4-----------4-----------1-----------1-----|

A|-----7-----------7-----------5-----------5-----------5-----------5-------|
E|--5--------0--5--------0--0--------0--0--------0--0--------0--0--------0-|
C|-------------------------------------------------------------------------|
G|--------6-----------6-----------1-----------1-----------1----------1-----|

A|-----7-----------7-----------7-----------7--------|
E|--5--------0--5--------0--4--------0--4--------0--|
C|--------------------------------------------------|
G|--------6-----------6-----------6-----------6-----|

A|-----7-----------7-----------7-----------7--------|
E|--3--------0--3--------0--3--------0--3--------0--|
C|--------------------------------------------------|
G|--------6-----------6-----------6-----------6-----|

A|-----5-----------5-----------5-----------5--------|
E|--2--------0--2--------0--0--------0--0--------0--|
C|--------------------------------------------------|
G|--------4-----------4-----------1-----------1-----|

A|-----7-----------7-----------5-----------5-----------5-----------5-------|
E|--5--------0--5--------0--0--------0--0--------0--0--------0--0--------0-|
C|-------------------------------------------------------------------------|
G|--------6-----------6-----------1-----------1-----------1----------1-----|

A|-----7-----------7-----------7-----------7--------|
E|--5--------0--5--------0--4--------0--4--------0--|
C|--------------------------------------------------|
G|--------6-----------6-----------6-----------6-----|

A|-----7-----------7-----------7-----------7--------|
E|--3--------0--3--------0--3--------0--3--------0--|
C|--------------------------------------------------|
G|--------6-----------6-----------6-----------6-----|

A|-----5-----------5-----------5-----------5--------|
E|--2--------0--2--------0--0--------0--0--------0--|
C|--------------------------------------------------|
G|--------4-----------4-----------1-----------1-----|

A|-----7-----------7-----------5-----------5-----------5-----------5-------|
E|--5--------0--5--------0--0--------0--0--------0--0--------0--0--------0-|
C|-------------------------------------------------------------------------|
G|--------6-----------6-----------1-----------1-----------1----------1-----|

A|-----7-----------7--------------------------------|
E|--5--------0--5--------0-----1-----------1--------|
C|--------------------------2-----2-----2-----2-----|
G|--------6-----------6--------------4-----------4--|

A|-----7-----------7--------------------------------|
E|--5--------0--5--------0-----1-----------1--------|
C|--------------------------2-----2-----2-----2-----|
G|--------6-----------6--------------4-----------4--|

A|-----7-----------7--------------------------------|
E|--5--------0--5--------0-----1-----------1--------|
C|--------------------------2-----2-----2-----2-----|
G|--------6-----------6--------------4-----------4--|

A|-----7-----------7-----------5-----------5--------|
E|--5--------0--5--------0--0--------0--0--------0--|
C|--------------------------------------------------|
G|--------6-----------6-----------1-----------1-----|

A|-----7-----------7-----------5-----------5-----------5-----------5--------|
E|--5--------0--5--------0--0--------0--0--------0--0--------0--0--------0--|
C|--------------------------------------------------------------------------|
G|--------6-----------6-----------1-----------1-----------1-----------1-----|

A|-----7-----------7-----------7-----------7--------|
E|--5--------0--5--------0--4--------0--4--------0--|
C|--------------------------------------------------|
G|--------6-----------6-----------6-----------6-----|

A|-----7-----------7-----------7-----------7--------|
E|--3--------0--3--------0--3--------0--3--------0--|
C|--------------------------------------------------|
G|--------6-----------6-----------6-----------6-----|

A|-----5-----------5-----------5-----------5--------|
E|--2--------0--2--------0--0--------0--0--------0--|
C|--------------------------------------------------|
G|--------4-----------4-----------1-----------1-----|

A|-----7-----------7-----------5-----------5-----------5-----------5-------|
E|--5--------0--5--------0--0--------0--0--------0--0--------0--0--------0-|
C|-------------------------------------------------------------------------|
G|--------6-----------6-----------1-----------1-----------1----------1-----|

A|-----7-----------7-----------7-----------7--------|
E|--5--------0--5--------0--4--------0--4--------0--|
C|--------------------------------------------------|
G|--------6-----------6-----------6-----------6-----|

A|-----7-----------7-----------7-----------7--------|
E|--3--------0--3--------0--3--------0--3--------0--|
C|--------------------------------------------------|
G|--------6-----------6-----------6-----------6-----|

A|-----5-----------5-----------5-----------5--------|
E|--2--------0--2--------0--0--------0--0--------0--|
C|--------------------------------------------------|
G|--------4-----------4-----------1-----------1-----|

A|-----7-----------7-----------5-----------5-----------5-----------5-------|
E|--5--------0--5--------0--0--------0--0--------0--0--------0--0--------0-|
C|-------------------------------------------------------------------------|
G|--------6-----------6-----------1-----------1-----------1----------1-----|

A|-----7-----------7--------------------------------|
E|--5--------0--5--------0-----1-----------1--------|
C|--------------------------2-----2-----2-----2-----|
G|--------6-----------6--------------4-----------4--|

A|-----7-----------7--------------------------------|
E|--5--------0--5--------0-----1-----------1--------|
C|--------------------------2-----2-----2-----2-----|
G|--------6-----------6--------------4-----------4--|

A|-----7-----------7--------------------------------|
E|--5--------0--5--------0-----1-----------1--------|
C|--------------------------2-----2-----2-----2-----|
G|--------6-----------6--------------4-----------4--|

A|-----7-----------7-----------5-----------5--------|
E|--5--------0--5--------0--0--------0--0--------0--|
C|--------------------------------------------------|
G|--------6-----------6-----------1-----------1-----|

A|-----7-----------7-----------5-----------5--------|
E|--5--------0--5--------0--0--------0--0--------0--|
C|--------------------------------------------------|
G|--------6-----------6-----------1-----------1-----|

A|-----7-----------7-----------5-----------5-----------5-----------5--------|
E|--5--------0--5--------0--0--------0--0--------0--0--------0--0--------0--|
C|--------------------------------------------------------------------------|
G|--------6-----------6-----------1-----------1-----------1-----------1-----|

A|-----7-----------7-----------7-----------7--------|
E|--5--------0--5--------0--4--------0--4--------0--|
C|--------------------------------------------------|
G|--------6-----------6-----------6-----------6-----|

A|-----7-----------7-----------7-----------7--------|
E|--5--------0--5--------0--4--------0--4--------0--|
C|--------------------------------------------------|
G|--------6-----------6-----------6-----------6-----|

A|-----7-----------7-----------5-----------5---------|
E|--3--------0--3--------0--2--------0-2---------0---|
C|---------------------------------------------------|
G|--------6-----------6-----------4-----------4------|

A|-----5-----------5-----------5-----------5--------|
E|--0--------0--0--------0--0--------0--0--------0--|
C|--------------------------------------------------|
G|--------1-----------1-----------1-----------1-----|

A|-----7-----------7-----------7-----------7--------|
E|--5--------0--5--------0--4--------0--4--------0--|
C|--------------------------------------------------|
G|--------6-----------6-----------6-----------6-----|

A|-----7-----------7-----------7-----------7--------|
E|--5--------0--5--------0--4--------0--4--------0--|
C|--------------------------------------------------|
G|--------6-----------6-----------6-----------6-----|

A|-----7-----------7-----------7-----------7--------|
E|--5--------0--5--------0--4--------0--4--------0--|
C|--------------------------------------------------|
G|--------6-----------6-----------6-----------6-----|

A|-----5-----------5-----------5-----------5---------|
E|--2--------0--2--------0--2--------0-2---------0---|
C|---------------------------------------------------|
G|--------4-----------4-----------4-----------4------|

A|-----5-----------5-----------5-----------5--------|
E|--0--------0--0--------0--0--------0--0--------0--|
C|--------------------------------------------------|
G|--------1-----------1-----------1-----------1-----|

A|--------------------------------------------------|
E|-----1-----------1-----------1-----------1--------|
C|--2-----2-----2-----2-----2-----2-----2-----2-----|
G|-----------4-----------4-----------4-----------4--|

A|-----7-----------7-----------7-----------7--------|
E|--5--------0--5--------0--4--------0--4--------0--|
C|--------------------------------------------------|
G|--------6-----------6-----------6-----------6-----|

A|--------------------------------------------------|
E|-----1-----------1-----------1-----------1--------|
C|--2-----2-----2-----2-----2-----2-----2-----2-----|
G|-----------4-----------4-----------4-----------4--|

A|-----7-----------7-----------7-----------7--------|
E|--5--------0--5--------0--4--------0--4--------0--|
C|--------------------------------------------------|
G|--------6-----------6-----------6-----------6-----|

A|-----7-----------7-----------7-----------7--------|
E|--5--------0--5--------0--4--------0--4--------0--|
C|--------------------------------------------------|
G|--------6-----------6-----------6-----------6-----|

A|-----5-----------5-----------5-----------5---------|
E|--2--------0--2--------0--2--------0-2---------0---|
C|---------------------------------------------------|
G|--------4-----------4-----------4-----------4------|

A|-----5-----------5-----------5-----------5-----------7-------|
E|--0--------0--0--------0--0--------0--0--------0--5--------0-|
C|-------------------------------------------------------------|
G|--------1-----------1-----------1-----------1-----------6----|

 

乐谱评价 (0)
暂时没有评价. :(
需要帮助,你有一个小费分享,或只是想谈谈这首歌? 开始讨论!

您必须登录才能加入讨论
要么 注册

 

关于这首歌

没有这首歌的信息.