Hell Is Living Without You Uke乐谱通过 Alice Cooper

8 在歌曲中使用的和弦: G, F, Gm, Bb, Cm, D#, Am, Dm

添加乐谱到您的歌本里
Tablature / ChordsFont size: A- A A+

不明白什么是乐谱和弦?请您浏览这些uke课程:

Intro: G G F F G G F F

I Verse:

Gm Gm Bb Bb
I can't find your face in a thousand masqueraders
Cm Cm D# D# F F
You're hidden in the colors of a million other lost charades
Gm Gm
In life's big parade
Bb Bb
I'm the loneliest spectator
Cm Cm D# D# F F
Cuz you're gone without a trace in a sea of faceless imitators

Pre-chorus:

Gm Gm D# D# F F
Aaa-aah-Aa-ah

F F Gm Gm
I can't take another night

Gm Gm D# D# F F
Aaa-aah-Aa-aah

F F
Burning inside this

I Chorus:

Am Am G G Dm Dm
Hell is living without your love
F F
Ain't nothing without your
Am Am
Touch me
G G Bb Bb
Heaven would be like hell
Dm Dm Am Am G G
Is living without you-ouu-ouu

II Verse:

Gm Gm
Try to walk away
Bb Bb
When I see the time I've wasted
Cm Cm
Starving at a feast
D# D# F F
And all this wine I never tasted

Gm Gm Bb Bb
On my lips Your memory has been stained
Cm Cm
It is all in vain
D# D# F F
Tell me who's to blaa-aame

Pre chorus:

Gm Gm D# D# F F
Aaa-aah-Aa-ah

F F Gm Gm
I can't take another night

Gm Gm D# D# F F
Aaa-aah-Aa-aah

F F
Burning inside this

II Chorus:

Am Am G G Dm Dm
Hell is living without your love
F F
Ain't nothing without your
Am Am
Touch me
G G Bb Bb
Heaven would be like hell
Dm Dm
Is living without you

Am Am G G
Nights get longer and colder
Dm Dm F F
I'm down begging to hold ya
Am Am G G Bb Bb
On my own and I feel like hell
Dm Dm Dm Dm Dm Dm
Is living without you (living without you) (living without you)

SOLO

A-12-12-12-12-10-8-12--12-10-8-10-10-10-10-8-6-10
E------------------------------------------------
C------------------------------------------------
G------------------------------------------------


A-10-8-6-3--3-5-3-10-8-6--6-8-6-3-5-3------------
E------------------------------------------------
C------------------------------------------------
G------------------------------------------------


A-7-8-5--7-8-5--7-7-8-8-10-10--10-8-8-7-7-5-5-7--
E------------------------------------------------
C------------------------------------------------
G------------------------------------------------


A-2-3-2-0--2-3-2----2-3-2-0--12-12~--------------
E----------------3-------------------------------
C------------------------------------------------
G------------------------------------------------

III Chorus:

Am Am G G Dm Dm
Hell is living without your love
F F
Ain't nothing without your
Am Am
Touch me
G G Bb Bb
Heaven would be like hell
Dm Dm
Is living without you

Am Am G G
Nights get longer and colder
Dm Dm F F
I'm down begging to hold ya
Am Am G G Bb Bb
On my own and I feel like hell
Dm Dm
Is living without you-ouu!

 

乐谱评价 (0)
暂时没有评价. :(
需要帮助,你有一个小费分享,或只是想谈谈这首歌? 开始讨论!

您必须登录才能加入讨论
要么 注册

 

关于这首歌

没有这首歌的信息.