Forest Gump Theme Uke乐谱通过 Alan Silvestri

1 在歌曲中使用的和弦 :

添加乐谱到您的歌本里

为Baritone浏览这些和弦

Transpose chords:
Tablature / ChordsFont size: A- A A+

不明白什么是乐谱和弦?请您浏览这些uke课程:


forrest gump theme

||-----------------------------------------------------------------|
||---3---3---3---3---3---3---3---3---3---3---3---3---3---3---3---3-|
||-0---------------0---------------0---------------0---------------|
||-----------------------------------------------------------------|
| 1 2 3 4 | 1 2 3 4 | 1 2 3 4 | 1 2 3 4 |

|-------------------3-----------------0-0-------0-----------------|
|-0-1-3-3---0---3-------3---0-----1-3-------1---------------------|
|-0-------------------------------0-------------------------------|
|-0-------------------------------2-------------------------------|
| 1 2 3 4 | 1 2 3 4 | 1 2 3 4 | 1 2 3 4 |

|-----0-0-------0---5---2-------------------3-------------3---2---|
|-1-3-------1---3-----------3-----0-1-3-3-------3---------3---3---|
|-2-------------2-----------------0-----------------------0---2---|
|-2-------------0-----------------0-----------------------0---0---|
| 1 2 3 4 | 1 2 3 4 | 1 2 3 4 | 1 2 3 4 |

|-0-2-3-3---0---3-----0-3---0---------0-0-------0-----------------|
|-0-------------------------------1-3-------1---------------------|
|-0-------------------------------0-------------------------------|
|-2-------------------------------2-------------------------------|
| 1 2 3 4 | 1 2 3 4 | 1 2 3 4 | 1 2 3 4 |

|-----0-0---------------------------------------------------------|
|-1-3-------1---------0-1-----------3---3---3---3---3---3---3---3-|
|-2-------------2-----------2-----0---------------0---------------|
|-2-------------0-------------------------------------------------|
| 1 2 3 4 | 1 2 3 4 | 1 2 3 4 | 1 2 3 4 |

|-----------------3-------------||
|---3---3---3---3-3-------------||
|-0---------------0-------------||
|-----------------0-------------||
| 1 2 3 4 | 1 2 3 4 |

 

乐谱评价 (1)
您必须登录才能加入讨论
要么 注册

 

Churrolova avatar
Amazing! Bravo!
18 Sep 2018
关于这首歌

没有这首歌的信息.