The Boy Who Destroyed The World Uke乐谱通过 Afi

Ukulele乐谱没有和弦.

添加乐谱到您的歌本里
Tablature / ChordsFont size: A- A A+

不明白什么是乐谱和弦?请您浏览这些uke课程:

A|--9-9-9-9-7-7-9-9-9-9-9-9-10--10--12--12--5-5-5-5-5-5-5-5-5-5-5-5-7-7-7-7--|
E|--7-7-7-7-5-5-7-7-7-7-7-7-8--8--10--10--3-3-3-3-3-3-3-3---------5-5-5-5--|
C|--11-11-11-11-9-9-11-11-11-11-11-11-12--12--14--14--7-7-7-7-7-7-7-7-9-9-9-9-9-9-9-9--|
G|------------------------------------------------------7-7-7-7----------|

~~ ~~ S S ~~
A|-------------6---6----------------|
E|---3---5------------7--7------|
C|-------------6--6-------------|
G|-------------11--11---16--16------|

SSSS
A|-------------|
E|------------|
C|------------|
G|---4----16---|


A|--4--4--4--4--9--4---5-5-5-5----7-----|
E|----------------3-3-3-3-5--5-----|
C|--11-11-11-11-2--2--7-7-7-7-2--9-----|
G|--4-4-4-4-4--4----------7--------|

S
A|--4--4--4--4--9--4-------------(---)---|
E|----------------3--5-----5-----|
C|--11-11-11-11-2--2-----------------|
G|--4-4-4-4-4--4--12--14----(14-)---|

S
A|--2--2-2-2-2-2-2-4-----4--4--2--2--(2)------2--------|
E|--0--0-0-0-0-0-0---2--2--2--0--2---2----0-----------|
C|--4--4-4-4-4-4-4-11-6--6--6--4-----(-)------------2--|
G|-----------------4-------------4--(4)---------0-----|


A|--9-9-9-9-7-7-9-9-9-9-9-9-10--10--12--12--5-5-5-5-5-5-5-5-5-5-5-5-7-7-7-7--|
E|--7-7-7-7-5-5-7-7-7-7-7-7-8--8--10--10--3-3-3-3-3-3-3-3---------5-5-5-5--|
C|--11-11-11-11-9-9-11-11-11-11-11-11-12--12--14--14--7-7-7-7-7-7-7-7-9-9-9-9-9-9-9-9--|
G|------------------------------------------------------7-7-7-7----------|

A|---x--x--x--x---x---x----6---6---6-----------|
E|---3-3-3-5--5--5--------------------|
C|-------------------6--6--6--4-4-4---|
G|---x-x-x-x--x--x---11--11--11--9-9-9---|

~~
A|---x----x-----6-----|
E|---3---5---------|
C|------------6----|
G|---x---x----11----|

A|------7------7----|
E|---------3--(3)---|
C|------------------|
G|---4--------(4)---|

A|--7-7-7-7-T--T--T--9-9-9-T--7-7-7-7---|
E|--0-0-0-0-0--0--0--0-0-0-0--0-0-0-0---|
C|--------------------------------------|
G|--------------------------------------|

A|--7/9-9-9-7/9-9-7/T---9--7-7-7-7---|
E|--0---0-0-0---0-0-----0--0-0-0-0---|
C|-----------------------------------|
G|-----------------------------------|


A|--7/9-9-9-7/9-9-7/9--T---9--J---M--7-7-7---|
E|--0---0-0-0---0-0----0---0--0---0--0-0-0---|
C|-------------------------------------------|
G|-------------------------------------------|

A|--7/9-9-9-7/9-9--7/T--T-/9-9-9-9-9---|
E|--0---0-0-0---0--0-0--0----0-0-0-0---|
C|-------------------------------------|
G|-------------------------------------|

A|--7/9-9-9-7/9-9-7/T---T---9-/7-7---|
E|--0---0-0-0---0-0------------------|
C|----------------------x---x--x-x---|
G|----------------------J---I-/9-9---|

A|--7/9-9-9-7/9-9-9-T---9--7-7-7-7---|
E|--0---0-0-0---0-0-0---0--0-0-0-0---|
C|-----------------------------------|
G|-----------------------------------|

A|--7/9-9-9-7/9-9-9-9--T---9--J----|
E|--0---0-0-0---0-0-0--0---0--0----|
C|---------------------------------|
G|---------------------------------|

A|--5/7-7-7-7---7-7---2-2-5/7--7---|
E|--0---0-0-0---0-0---x-x-0----0---|
C|---------------------------------|
G|---------------------------------|

S
A|--5---7-7------------------------------------------------------------|
E|----------2---2--3------<-->----3------------------------------------|
C|--4-4-4-4-4---4--4------------------<-->-----------------------------|
G|----------------------4--9--4--<-->--7-------------------------------|

A|--2----(2)-----------------------------------------------------------|
E|--0----(0)-----------------------------------------------------------|
C|--4----(4)-----------------------------------------------------------|
G|---------------------------------------------------------------------|

A|---------------------------------------------------------------------|
E|---5-------5--------(--)---------------------------------------------|
C|---------------------------------------------------------------------|
G|-------9-------9-----9-----------------------------------------------|

 

乐谱评价 (0)
暂时没有评价. :(
需要帮助,你有一个小费分享,或只是想谈谈这首歌? 开始讨论!

您必须登录才能加入讨论
要么 注册

 

关于这首歌

没有这首歌的信息.