Halloween Uke乐谱通过 Afi

Ukulele乐谱没有和弦.

添加乐谱到您的歌本里
Tablature / ChordsFont size: A- A A+

不明白什么是乐谱和弦?请您浏览这些uke课程:

A|---7-7-7--8--8--8--7-7-7--8--8--8--7:-7:-7-7-7--8--8--8--7-7-7--8--8--8----|
E|---------8--8--8---------8--8--8---5:-5:-------8--8--8---------8--8--8-----|
C|---11-11-11-----------11-11-11-----------9:-9:-11-11-11-----------11-11-11-------------|
G|---9-9-9-10--10--10---9-9-9-10--10--10---------9-9-9-10--10--10---9-9-9-10--10--10-----|
A|---7-7-7-7-7-7--5-5-5-5-5-5--7-7-7-7-7-7--5-5-5-5-5-5---|
E|---5-5-5-5-5-5--3-3-3-3-3-3--5-5-5-5-5-5--3-3-3-3-3-3---|
C|---9-9-9-9-9-9--7-7-7-7-7-7--9-9-9-9-9-9--7-7-7-7-7-7---|
G|--------------------------------------------------------|

 

乐谱评价 (0)
暂时没有评价. :(
需要帮助,你有一个小费分享,或只是想谈谈这首歌? 开始讨论!

您必须登录才能加入讨论
要么 注册

 

关于这首歌

没有这首歌的信息.