Beating Around The Bush (介绍) Uke乐谱通过 Ac Dc

Ukulele乐谱没有和弦.

添加乐谱到您的歌本里
Tablature / ChordsFont size: A- A A+

不明白什么是乐谱和弦?请您浏览这些uke课程:

A|-----------------|-----0--1h-2--5------|-----------------|-----0--1h-2--5----|
E|--------------0--|--3------------------|--------------0--|--3----------------|
C|-----------------|---------------------|-----------------|-------------------|
G|-----------------|---------------------|-----------------|-------------------|

|-------------------|-----0--1h-2--5--2p-1--0--|-----------------2-------|
|----------------0--|--3-----------------------|--3--0--3--0--0--0----0--|
|-------------------|--------------------------|-----------------4-------|
|-------------------|--------------------------|-------------------------|

|-----0--1h-2--5--2p-1--0--|-----2---------------|-----0--1h-2--5--2p-1--0--|
|--3-----------------------|--3b-0------------0--|--3-----------------------|
|--------------------------|---------------------|--------------------------|
|--------------------------|---------------------|--------------------------|

 

乐谱评价 (0)
暂时没有评价. :(
需要帮助,你有一个小费分享,或只是想谈谈这首歌? 开始讨论!

您必须登录才能加入讨论
要么 注册

 

关于这首歌

没有这首歌的信息.